Domina el rock and roll con estas tablaturas

Si eres un apasionado de la música y, en particular, del rock and roll, probablemente te hayas preguntado alguna vez cómo tocar tus canciones favoritas en la guitarra. La respuesta a esta pregunta es sencilla: las tablaturas. En este artículo te explicaremos qué son las tablaturas, cómo leerlas, por qué deberías usarlas y te daremos algunos consejos para que puedas empezar a tocar la guitarra con facilidad.

¿Qué son las tablaturas?

Las tablaturas son una forma de escritura musical que permite representar las notas musicales de la guitarra de forma gráfica. La ventaja que tienen las tablaturas sobre las partituras es que son más fáciles de leer y entender para aquellos que no tienen conocimientos teóricos de música.

¿Cómo se leen?

La lectura de las tablaturas es muy sencilla. Cada línea representa una cuerda de la guitarra, mientras que los números que aparecen en ella representan los trastes. Si el número es un 0 significa que la cuerda debe sonar al aire, sin pisar ningún traste. Por otro lado, si aparece una X significa que la cuerda no se debe tocar.

Por ejemplo, si en la tablatura aparece un número 3 encima de la cuerda 2 significa que debemos pisar el tercer traste de la segunda cuerda. Si aparecen varios números en una misma línea, debemos tocar los acordes en ese orden, desde la izquierda hacia la derecha.

¿Cuál es su diferencia con las partituras?

La principal diferencia entre las tablaturas y las partituras es la forma de representación de la música. Las partituras están escritas en un lenguaje específico para músicos que conocen el solfeo, y que además son capaces de leer a primera vista los ritmos y las melodías. Las tablaturas, por otro lado, están diseñadas para que cualquier persona que sepa tocar la guitarra pueda entenderlas.

¿Por qué usar tablaturas?

Las tablaturas son una herramienta fundamental para aquellos que quieren aprender a tocar la guitarra. Se trata de una forma práctica y sencilla de adquirir conocimientos sobre las técnicas de guitarra y de mejorar la habilidad en la ejecución de acordes y notas.

El uso de las tablaturas permite ahorrar tiempo y esfuerzo en la tarea de aprendizaje, ya que no es necesario tener conocimientos teóricos para poder empezar a tocar canciones populares. Además, es una excelente manera de aprender nuevas canciones, mejorar la técnica y estimular la creatividad.

Consejos para principiantes

Si eres un principiante en el mundo de la guitarra, es importante empezar con canciones sencillas para ir mejorando la técnica y la habilidad. Aquí te damos algunos consejos para que puedas empezar a tocar desde el primer momento:

¿Qué canciones son buenas para empezar?

Las canciones más sencillas para empezar a tocar son aquellas que solo requieren acordes básicos. Algunas de las canciones más populares entre los principiantes son:

  • “Knockin’ on Heaven’s Door” – Bob Dylan
  • “Wonderwall” – Oasis
  • “Sweet Child o’ Mine” – Guns N’ Roses

Estas canciones cuentan con estructuras de acordes fáciles de aprender y te permitirán ir mejorando tu técnica a medida que avances.

¿Qué técnica de guitarra es la más sencilla?

Si eres un principiante, lo mejor es empezar por la técnica del rasgueo. Se trata de tocar las cuerdas de la guitarra con la mano o la púa y conseguir el ritmo adecuado para la canción que estás tocando. Si quieres mejorar tu habilidad en esta técnica, te recomendamos practicar con canciones sencillas e ir aumentando la dificultad a medida que mejores.

¿Cómo puedo mejorar mi ritmo al tocar?

El ritmo es fundamental en la música, por lo que es importante que dediques tiempo a practicar esta habilidad. Una forma de hacerlo es tocando con un metrónomo, que te permitirá mantener el ritmo constante y mejorar la precisión al tocar.

Tablaturas para canciones populares

Una excelente forma de practicar con las tablaturas es tocando canciones populares. Aquí te dejamos algunas tablaturas de canciones icónicas del rock and roll que seguramente te encantarán:

“Beat It” – Michael Jackson

E|-----------------------------------------------------------------------------------------------------
B|-----------------------------------------------------------------------------------------------------
G|---------5----------5--------------5----------5--------------5----------5----------------------
D|--7--7--------7--7--------7---5--5--------5--5--------4--4--------4--4------------------------
A|-----------------------------------------------------------------------------------------------------
E|-----------------------------------------------------------------------------------------------------

“Come Together” – The Beatles

E|---------0----------------------|---------0----------------------|---------0----------------------|
B|-------1--------1-----3b4r3-1---|-------1--------1-----3b4r3-1---|-------1--------1-----3b4r3-1---|
G|-----2---2--------2-----------2-|-----2---2--------2-----------2-|-----2---2--------2--------------|
D|---2---------------------------|---2---------------------------|---2-------------2--------------|
A|--------------------------------|--------------------------------|-----------------0--------------|
E|--------------------------------|--------------------------------|--------------------------------|

“Hotel California” – The Eagles

E|--------12--12----------12--12-------------------14b16--14--12---------12--12-----------12-12---------
B|----------------12p10-------------12p10-----------------------------12p10-----------------------14--
G|----------------------12-----------------12-----------------------12-------------------------14-----
D|--14------------------------------------------------------14---------------------------------------
A|-----------------------------------------------------------------------------------------------------
E|-----------------------------------------------------------------------------------------------------

“Stairway to Heaven” – Led Zeppelin

E|-----------------------------------------------------------------------------------------------------
B|-----------------------------------------------------------------------------------------------------
G|-----------------------------------------------------------------------------------------------------
D|---2-0---------0-2-3---2-0---------0-------0-2-0---------0-----0-------2-0---------0-2---------0---
A|-------3-2-0---------3-------3-2-0-------3-------3-2-0-----3-------3-------3-2-0-------------3-----
E|-----------------------------------------------------------------------------------------------------

Conclusión

Las tablaturas son una de las formas más sencillas de aprender a tocar la guitarra. Son fáciles de leer, permiten ahorrar tiempo y esfuerzo y son una excelente manera de ir mejorando la técnica y la habilidad. Te recomendamos empezar con canciones sencillas y, poco a poco, ir aumentando la dificultad. ¡Diviértete y sigue entrenando tu habilidad en la guitarra!

Preguntas frecuentes

¿Dónde puedo encontrar más tablaturas?

Existen muchos sitios web donde podrás encontrar tablaturas para guitarra de todas las canciones que puedas imaginar. Algunas páginas recomendadas son ultimateguitar.com, guitarrista.com o guitarraviva.com.

¿Las tablaturas son universales?

Sí, las tablaturas son universales y se utilizan en todas partes del mundo. La representación gráfica de la música es la misma para todas las personas, independientemente de su idioma o cultura.

¿Es necesario conocer las notas para usar tablaturas?

No, no es necesario tener conocimientos teóricos de música para poder leer una tablatura. Las tablaturas son una forma visual de representar la música, por lo que cualquier persona que sepa tocar la guitarra podrá entenderlas.

¿Puedo encontrar tablaturas para otros instrumentos además de la guitarra?

Sí, además de las tablaturas para guitarra, podrás encontrar tablaturas para muchos otros instrumentos, como el bajo, la batería, el teclado, entre otros. Simplemente busca en internet las tablaturas para el instrumento que quieras y seguramente encontrarás muchas opciones.

Deja un comentario

Tu dirección de correo electrónico no será publicada. Los campos obligatorios están marcados con *

Carrito de compra
es_ESSpanish